  0
SECTION
  2
HEADER
  9
$ACADVER
  1
AC1009
  9
$INSBASE
 10
415.954718
 20
410.77187
 30
0.0
  9
$EXTMIN
 10
415.954718
 20
410.77187
 30
0.0
  9
$EXTMAX
 10
600.192444
 20
489.652308
 30
0.0
  9
$LIMMIN
 10
0.0
 20
0.0
  9
$LIMMAX
 10
420.0
 20
297.0
  9
$ORTHOMODE
 70
     0
  9
$REGENMODE
 70
     1
  9
$FILLMODE
 70
     1
  9
$QTEXTMODE
 70
     0
  9
$MIRRTEXT
 70
     0
  9
$DRAGMODE
 70
     2
  9
$LTSCALE
 40
1.0
  9
$OSMODE
 70
     0
  9
$ATTMODE
 70
     1
  9
$TEXTSIZE
 40
3.5
  9
$TRACEWID
 40
0.05
  9
$TEXTSTYLE
  7
STANDARD
  9
$CLAYER
  8
0
  9
$CELTYPE
  6
BYLAYER
  9
$CECOLOR
 62
   256
  9
$DIMSCALE
 40
1.0
  9
$DIMASZ
 40
2.5
  9
$DIMEXO
 40
1.0
  9
$DIMDLI
 40
8.0
  9
$DIMRND
 40
0.0
  9
$DIMDLE
 40
0.0
  9
$DIMEXE
 40
2.0
  9
$DIMTP
 40
0.1
  9
$DIMTM
 40
0.1
  9
$DIMTXT
 40
3.5
  9
$DIMCEN
 40
2.0
  9
$DIMTSZ
 40
0.0
  9
$DIMTOL
 70
     0
  9
$DIMLIM
 70
     0
  9
$DIMTIH
 70
     0
  9
$DIMTOH
 70
     0
  9
$DIMSE1
 70
     0
  9
$DIMSE2
 70
     0
  9
$DIMTAD
 70
     1
  9
$DIMZIN
 70
     8
  9
$DIMBLK
  1

  9
$DIMASO
 70
     0
  9
$DIMSHO
 70
     0
  9
$DIMPOST
  1

  9
$DIMAPOST
  1

  9
$DIMALT
 70
     0
  9
$DIMALTD
 70
     2
  9
$DIMALTF
 40
25.39999999999999
  9
$DIMLFAC
 40
1.0
  9
$DIMTOFL
 70
     1
  9
$DIMTVP
 40
0.0
  9
$DIMTIX
 70
     0
  9
$DIMSOXD
 70
     0
  9
$DIMSAH
 70
     0
  9
$DIMBLK1
  1

  9
$DIMBLK2
  1

  9
$DIMSTYLE
  2
*UNNAMED
  9
$DIMCLRD
 70
     0
  9
$DIMCLRE
 70
     0
  9
$DIMCLRT
 70
     0
  9
$DIMTFAC
 40
1.0
  9
$DIMGAP
 40
0.09
  9
$LUNITS
 70
     2
  9
$LUPREC
 70
     3
  9
$SKETCHINC
 40
0.1
  9
$FILLETRAD
 40
20.0
  9
$AUNITS
 70
     0
  9
$AUPREC
 70
     3
  9
$MENU
  1
acad
  9
$ELEVATION
 40
0.0
  9
$PELEVATION
 40
0.0
  9
$THICKNESS
 40
0.0
  9
$LIMCHECK
 70
     0
  9
$BLIPMODE
 70
     0
  9
$CHAMFERA
 40
0.0
  9
$CHAMFERB
 40
0.0
  9
$SKPOLY
 70
     1
  9
$TDCREATE
 40
2448889.547481250
  9
$TDUPDATE
 40
2449393.455598032
  9
$TDINDWG
 40
0.0011467593
  9
$TDUSRTIMER
 40
0.0011467593
  9
$USRTIMER
 70
     1
  9
$ANGBASE
 50
0.0
  9
$ANGDIR
 70
     0
  9
$PDMODE
 70
     3
  9
$PDSIZE
 40
2.0
  9
$PLINEWID
 40
0.0
  9
$COORDS
 70
     2
  9
$SPLFRAME
 70
     0
  9
$SPLINETYPE
 70
     6
  9
$SPLINESEGS
 70
     8
  9
$ATTDIA
 70
     1
  9
$ATTREQ
 70
     1
  9
$HANDLING
 70
     0
  9
$HANDSEED
  5
3B
  9
$SURFTAB1
 70
     6
  9
$SURFTAB2
 70
     6
  9
$SURFTYPE
 70
     6
  9
$SURFU
 70
     6
  9
$SURFV
 70
     6
  9
$UCSNAME
  2

  9
$UCSORG
 10
0.0
 20
0.0
 30
0.0
  9
$UCSXDIR
 10
1.0
 20
0.0
 30
0.0
  9
$UCSYDIR
 10
0.0
 20
1.0
 30
0.0
  9
$PUCSNAME
  2

  9
$PUCSORG
 10
0.0
 20
0.0
 30
0.0
  9
$PUCSXDIR
 10
1.0
 20
0.0
 30
0.0
  9
$PUCSYDIR
 10
0.0
 20
1.0
 30
0.0
  9
$USERI1
 70
     0
  9
$USERI2
 70
     3
  9
$USERI3
 70
    15
  9
$USERI4
 70
     0
  9
$USERI5
 70
     0
  9
$USERR1
 40
0.0
  9
$USERR2
 40
1.0
  9
$USERR3
 40
0.0
  9
$USERR4
 40
1.0
  9
$USERR5
 40
0.0
  9
$WORLDVIEW
 70
     1
  9
$SHADEDGE
 70
     3
  9
$SHADEDIF
 70
    70
  9
$TILEMODE
 70
     1
  9
$MAXACTVP
 70
    16
  9
$PINSBASE
 10
0.0
 20
0.0
 30
0.0
  9
$PLIMCHECK
 70
     0
  9
$PEXTMIN
 10
1.000000000000000E+20
 20
1.000000000000000E+20
 30
1.000000000000000E+20
  9
$PEXTMAX
 10
-1.000000000000000E+20
 20
-1.000000000000000E+20
 30
-1.000000000000000E+20
  9
$PLIMMIN
 10
0.0
 20
0.0
  9
$PLIMMAX
 10
12.0
 20
9.0
  9
$UNITMODE
 70
     0
  9
$VISRETAIN
 70
     0
  9
$PLINEGEN
 70
     0
  9
$PSLTSCALE
 70
     0
  9
$TREEDEPTH
 70
  3020
  9
$DWGCODEPAGE
  3
undefined
  0
ENDSEC
  0
SECTION
  2
TABLES
  0
TABLE
  2
VPORT
 70
     2
  0
VPORT
  2
*ACTIVE
 70
     0
 10
0.0
 20
0.0
 11
1.0
 21
1.0
 12
508.073581
 22
482.9836905720339
 13
0.0
 23
0.0
 14
7.0
 24
7.0
 15
0.0
 25
0.0
 16
0.0
 26
0.0
 36
1.0
 17
0.0
 27
0.0
 37
0.0
 40
144.4236411440678
 41
1.275675675675675
 42
50.0
 43
0.0
 44
0.0
 50
0.0
 51
0.0
 71
     0
 72
 10000
 73
     1
 74
     0
 75
     0
 76
     0
 77
     0
 78
     0
  0
ENDTAB
  0
TABLE
  2
LTYPE
 70
     3
  0
LTYPE
  2
AUSGEZOGEN
 70
    64
  3
Solid line
 72
    65
 73
     0
 40
0.0
  0
LTYPE
  2
CONTINUOUS
 70
    64
  3
Solid line
 72
    65
 73
     0
 40
0.0
  0
LTYPE
  2
ITEM-STRICHPUNKT
 70
    64
  3
__ . __ . __
 72
    65
 73
     4
 40
3.6
 49
2.399999999999999
 49
-0.6
 49
0.0
 49
-0.6
  0
ENDTAB
  0
TABLE
  2
LAYER
 70
     4
  0
LAYER
  2
0
 70
     0
 62
     7
  6
AUSGEZOGEN
  0
LAYER
  2
ITEM_50
 70
    64
 62
     7
  6
CONTINUOUS
  0
LAYER
  2
ITEM_25
 70
    64
 62
     3
  6
CONTINUOUS
  0
LAYER
  2
ITEM_STP
 70
    64
 62
     4
  6
ITEM-STRICHPUNKT
  0
ENDTAB
  0
TABLE
  2
STYLE
 70
     1
  0
STYLE
  2
STANDARD
 70
     0
 40
0.0
 41
1.0
 50
0.0
 71
     0
 42
3.5
  3
iso
  4

  0
ENDTAB
  0
TABLE
  2
VIEW
 70
     0
  0
ENDTAB
  0
TABLE
  2
UCS
 70
     0
  0
ENDTAB
  0
TABLE
  2
APPID
 70
     1
  0
APPID
  2
ACAD
 70
    64
  0
ENDTAB
  0
TABLE
  2
DIMSTYLE
 70
     0
  0
ENDTAB
  0
ENDSEC
  0
SECTION
  2
BLOCKS
  0
ENDSEC
  0
SECTION
  2
ENTITIES
  0
LINE
  8
ITEM_50
 10
443.139199
 20
472.192329
 30
0.0
 11
443.639199
 21
472.192329
 31
0.0
  0
ARC
  8
ITEM_50
 10
445.8387419999999
 20
467.7479539999999
 30
0.0
 40
5.2
 50
121.2747639999999
 51
162.14491
  0
LINE
  8
ITEM_50
 10
440.889199
 20
469.342329
 30
0.0
 11
440.889199
 21
465.5423289999999
 31
0.0
  0
ARC
  8
ITEM_50
 10
445.8387419999999
 20
467.136704
 30
0.0
 40
5.2
 50
197.8550899999999
 51
238.7252359999999
  0
LINE
  8
ITEM_50
 10
443.139199
 20
462.692329
 30
0.0
 11
443.139199
 21
472.192329
 31
0.0
  0
LINE
  8
ITEM_50
 10
443.639199
 20
462.692329
 30
0.0
 11
443.139199
 21
462.692329
 31
0.0
  0
LINE
  8
ITEM_50
 10
446.439199
 20
464.942329
 30
0.0
 11
444.639199
 21
464.942329
 31
0.0
  0
LINE
  8
ITEM_25
 10
445.239199
 20
465.512329
 30
0.0
 11
444.639199
 21
465.1673289999999
 31
0.0
  0
LINE
  8
ITEM_25
 10
451.639199
 20
465.512329
 30
0.0
 11
445.239199
 21
465.512329
 31
0.0
  0
LINE
  8
ITEM_25
 10
445.239199
 20
469.3723289999999
 30
0.0
 11
444.639199
 21
469.717329
 31
0.0
  0
LINE
  8
ITEM_25
 10
451.639199
 20
469.3723289999999
 30
0.0
 11
445.239199
 21
469.3723289999999
 31
0.0
  0
LINE
  8
ITEM_50
 10
445.239199
 20
469.942329
 30
0.0
 11
445.239199
 21
464.942329
 31
0.0
  0
LINE
  8
ITEM_50
 10
444.639199
 20
469.942329
 30
0.0
 11
451.069199
 21
469.942329
 31
0.0
  0
LINE
  8
ITEM_50
 10
451.069199
 20
464.942329
 30
0.0
 11
446.439199
 21
464.942329
 31
0.0
  0
LINE
  8
ITEM_50
 10
451.639199
 20
465.512329
 30
0.0
 11
451.069199
 21
464.942329
 31
0.0
  0
LINE
  8
ITEM_50
 10
451.639199
 20
469.3723289999999
 30
0.0
 11
451.639199
 21
465.512329
 31
0.0
  0
LINE
  8
ITEM_50
 10
451.069199
 20
469.942329
 30
0.0
 11
451.639199
 21
469.3723289999999
 31
0.0
  0
LINE
  8
ITEM_50
 10
451.069199
 20
469.942329
 30
0.0
 11
451.069199
 21
464.942329
 31
0.0
  0
LINE
  8
ITEM_50
 10
422.139199
 20
478.642329
 30
0.0
 11
422.139199
 21
464.642329
 31
0.0
  0
LINE
  8
ITEM_50
 10
422.439199
 20
464.942329
 30
0.0
 11
422.139199
 21
464.642329
 31
0.0
  0
LINE
  8
ITEM_50
 10
422.139199
 20
478.642329
 30
0.0
 11
422.439199
 21
478.342329
 31
0.0
  0
LINE
  8
ITEM_50
 10
422.139199
 20
464.642329
 30
0.0
 11
421.439199
 21
464.642329
 31
0.0
  0
LINE
  8
ITEM_50
 10
422.139199
 20
478.642329
 30
0.0
 11
421.439199
 21
478.642329
 31
0.0
  0
LINE
  8
ITEM_50
 10
422.439199
 20
464.942329
 30
0.0
 11
422.439199
 21
478.342329
 31
0.0
  0
LINE
  8
ITEM_50
 10
429.939199
 20
474.142329
 30
0.0
 11
429.939199
 21
469.142329
 31
0.0
  0
LINE
  8
ITEM_50
 10
422.439199
 20
471.642329
 30
0.0
 11
422.439199
 21
475.442329
 31
0.0
  0
LINE
  8
ITEM_50
 10
422.639199
 20
475.642329
 30
0.0
 11
422.939199
 21
475.642329
 31
0.0
  0
LINE
  8
ITEM_50
 10
422.939199
 20
471.642329
 30
0.0
 11
422.939199
 21
479.7423289999999
 31
0.0
  0
LINE
  8
ITEM_50
 10
423.339199
 20
480.142329
 30
0.0
 11
423.7980089999999
 21
480.142329
 31
0.0
  0
LINE
  8
ITEM_50
 10
425.58564
 20
478.642329
 30
0.0
 11
426.439199
 21
478.642329
 31
0.0
  0
ARC
  8
ITEM_50
 10
423.339199
 20
479.7423289999999
 30
0.0
 40
0.4
 50
90.0
 51
180.0
  0
ARC
  8
ITEM_50
 10
422.639199
 20
475.442329
 30
0.0
 40
0.2
 50
90.0
 51
180.0
  0
ARC
  8
ITEM_50
 10
429.5391989999999
 20
479.7423289999999
 30
0.0
 40
0.4
 50
0.0
 51
90.0
  0
LINE
  8
ITEM_50
 10
429.939199
 20
471.642329
 30
0.0
 11
429.939199
 21
479.7423289999999
 31
0.0
  0
LINE
  8
ITEM_50
 10
430.139199
 20
475.642329
 30
0.0
 11
429.939199
 21
475.642329
 31
0.0
  0
LINE
  8
ITEM_50
 10
425.58564
 20
478.642329
 30
0.0
 11
423.7980089999999
 21
480.142329
 31
0.0
  0
LINE
  8
ITEM_50
 10
427.2927589999999
 20
478.642329
 30
0.0
 11
426.439199
 21
478.642329
 31
0.0
  0
LINE
  8
ITEM_50
 10
427.2927589999999
 20
478.642329
 30
0.0
 11
429.08039
 21
480.142329
 31
0.0
  0
LINE
  8
ITEM_50
 10
429.5391989999999
 20
480.142329
 30
0.0
 11
429.08039
 21
480.142329
 31
0.0
  0
LINE
  8
ITEM_50
 10
425.58564
 20
478.642329
 30
0.0
 11
425.58564
 21
471.642329
 31
0.0
  0
LINE
  8
ITEM_50
 10
427.2927589999999
 20
478.642329
 30
0.0
 11
427.2927589999999
 21
471.642329
 31
0.0
  0
LINE
  8
ITEM_STP
 10
426.439199
 20
457.055092
 30
0.0
 11
426.439199
 21
480.4608639999999
 31
0.0
  0
LINE
  8
ITEM_50
 10
427.2927589999999
 20
464.642329
 30
0.0
 11
427.2927589999999
 21
471.642329
 31
0.0
  0
LINE
  8
ITEM_50
 10
425.58564
 20
464.642329
 30
0.0
 11
425.58564
 21
471.642329
 31
0.0
  0
LINE
  8
ITEM_50
 10
429.5391989999999
 20
463.142329
 30
0.0
 11
429.08039
 21
463.142329
 31
0.0
  0
LINE
  8
ITEM_50
 10
427.2927589999999
 20
464.642329
 30
0.0
 11
429.08039
 21
463.142329
 31
0.0
  0
LINE
  8
ITEM_50
 10
427.2927589999999
 20
464.642329
 30
0.0
 11
426.439199
 21
464.642329
 31
0.0
  0
LINE
  8
ITEM_50
 10
425.58564
 20
464.642329
 30
0.0
 11
423.7980089999999
 21
463.142329
 31
0.0
  0
LINE
  8
ITEM_50
 10
430.139199
 20
467.642329
 30
0.0
 11
429.939199
 21
467.642329
 31
0.0
  0
LINE
  8
ITEM_50
 10
429.939199
 20
471.642329
 30
0.0
 11
429.939199
 21
463.5423289999999
 31
0.0
  0
ARC
  8
ITEM_50
 10
429.5391989999999
 20
463.5423289999999
 30
0.0
 40
0.4
 50
270.0
 51
0.0
  0
ARC
  8
ITEM_50
 10
422.639199
 20
467.842329
 30
0.0
 40
0.2
 50
180.0
 51
270.0
  0
ARC
  8
ITEM_50
 10
423.339199
 20
463.5423289999999
 30
0.0
 40
0.4
 50
180.0
 51
270.0
  0
LINE
  8
ITEM_50
 10
425.58564
 20
464.642329
 30
0.0
 11
426.439199
 21
464.642329
 31
0.0
  0
LINE
  8
ITEM_50
 10
423.339199
 20
463.142329
 30
0.0
 11
423.7980089999999
 21
463.142329
 31
0.0
  0
LINE
  8
ITEM_50
 10
422.939199
 20
471.642329
 30
0.0
 11
422.939199
 21
463.5423289999999
 31
0.0
  0
LINE
  8
ITEM_50
 10
422.639199
 20
467.642329
 30
0.0
 11
422.939199
 21
467.642329
 31
0.0
  0
LINE
  8
ITEM_50
 10
422.439199
 20
471.642329
 30
0.0
 11
422.439199
 21
467.842329
 31
0.0
  0
CIRCLE
  8
ITEM_50
 10
436.439199
 20
467.442329
 30
0.0
 40
2.149999999999999
  0
LINE
  8
ITEM_50
 10
430.139199
 20
464.7423289999999
 30
0.0
 11
430.239199
 21
464.642329
 31
0.0
  0
LINE
  8
ITEM_50
 10
431.439199
 20
463.442329
 30
0.0
 11
431.439199
 21
460.442329
 31
0.0
  0
ARC
  8
ITEM_50
 10
432.439199
 20
460.442329
 30
0.0
 40
1.0
 50
180.0
 51
270.0
  0
LINE
  8
ITEM_50
 10
432.439199
 20
459.442329
 30
0.0
 11
444.439199
 21
459.442329
 31
0.0
  0
ARC
  8
ITEM_50
 10
444.439199
 20
461.442329
 30
0.0
 40
2.0
 50
270.0
 51
0.0
  0
LINE
  8
ITEM_50
 10
445.639199
 20
464.9418599999999
 30
0.0
 11
444.939199
 21
464.9418599999999
 31
0.0
  0
ARC
  8
ITEM_50
 10
444.939199
 20
464.6418599999999
 30
0.0
 40
0.3
 50
90.0
 51
180.0
  0
LINE
  8
ITEM_50
 10
444.639199
 20
464.6418599999999
 30
0.0
 11
444.639199
 21
462.524269
 31
0.0
  0
ARC
  8
ITEM_50
 10
443.8067889999999
 20
462.524269
 30
0.0
 40
0.832411
 50
225.0000029999999
 51
0.0
  0
LINE
  8
ITEM_50
 10
443.218186
 20
461.935666
 30
0.0
 11
440.9678789999999
 21
464.185973
 31
0.0
  0
ARC
  8
ITEM_50
 10
443.089199
 20
466.3072929999999
 30
0.0
 40
3.0
 50
180.0
 51
225.0
  0
LINE
  8
ITEM_50
 10
440.089199
 20
466.3072929999999
 30
0.0
 11
440.089199
 21
468.5764269999999
 31
0.0
  0
ARC
  8
ITEM_50
 10
443.089199
 20
468.5764269999999
 30
0.0
 40
3.0
 50
135.0
 51
180.0
  0
LINE
  8
ITEM_50
 10
440.9678789999999
 20
470.697748
 30
0.0
 11
443.218186
 21
472.9480549999999
 31
0.0
  0
ARC
  8
ITEM_50
 10
443.8067889999999
 20
472.3594509999999
 30
0.0
 40
0.832411
 50
359.9996009999999
 51
135.0
  0
LINE
  8
ITEM_50
 10
444.639199
 20
472.3594459999999
 30
0.0
 11
444.639199
 21
470.2418599999999
 31
0.0
  0
ARC
  8
ITEM_50
 10
444.939199
 20
470.2418599999999
 30
0.0
 40
0.3
 50
180.0
 51
270.0
  0
LINE
  8
ITEM_50
 10
446.439199
 20
475.4418599999999
 30
0.0
 11
446.439199
 21
485.4418599999999
 31
0.0
  0
ARC
  8
ITEM_50
 10
444.439199
 20
485.4418599999999
 30
0.0
 40
2.0
 50
0.0
 51
90.0
  0
LINE
  8
ITEM_50
 10
438.939199
 20
486.5567419999999
 30
0.0
 11
438.939199
 21
485.942329
 31
0.0
  0
ARC
  8
ITEM_50
 10
439.239199
 20
485.942329
 30
0.0
 40
0.3
 50
180.0
 51
270.0
  0
LINE
  8
ITEM_50
 10
439.239199
 20
485.642329
 30
0.0
 11
441.3567909999999
 21
485.642329
 31
0.0
  0
ARC
  8
ITEM_50
 10
441.3567909999999
 20
484.809919
 30
0.0
 40
0.832411
 50
315.0000029999999
 51
90.0
  0
LINE
  8
ITEM_50
 10
441.945394
 20
484.221315
 30
0.0
 11
439.695087
 21
481.9710089999999
 31
0.0
  0
ARC
  8
ITEM_50
 10
437.5737669999999
 20
484.092329
 30
0.0
 40
3.0
 50
270.0
 51
315.0
  0
LINE
  8
ITEM_50
 10
437.5737669999999
 20
481.092329
 30
0.0
 11
435.304632
 21
481.092329
 31
0.0
  0
ARC
  8
ITEM_50
 10
435.304632
 20
484.092329
 30
0.0
 40
3.0
 50
225.0
 51
270.0
  0
LINE
  8
ITEM_50
 10
433.183312
 20
481.9710089999999
 30
0.0
 11
430.9330049999999
 21
484.221315
 31
0.0
  0
ARC
  8
ITEM_50
 10
431.521608
 20
484.809919
 30
0.0
 40
0.832411
 50
89.99999699999999
 51
225.0
  0
LINE
  8
ITEM_50
 10
431.521608
 20
485.642329
 30
0.0
 11
433.639199
 21
485.642329
 31
0.0
  0
ARC
  8
ITEM_50
 10
433.639199
 20
485.942329
 30
0.0
 40
0.3
 50
270.0
 51
0.0
  0
LINE
  8
ITEM_50
 10
433.939199
 20
485.942329
 30
0.0
 11
433.939199
 21
486.5567419999999
 31
0.0
  0
LINE
  8
ITEM_50
 10
428.439199
 20
487.442329
 30
0.0
 11
420.439199
 21
487.442329
 31
0.0
  0
ARC
  8
ITEM_50
 10
420.439199
 20
485.442329
 30
0.0
 40
2.0
 50
90.0
 51
180.0
  0
LINE
  8
ITEM_50
 10
418.439199
 20
485.442329
 30
0.0
 11
418.439199
 21
461.442329
 31
0.0
  0
ARC
  8
ITEM_50
 10
420.439199
 20
461.442329
 30
0.0
 40
2.0
 50
180.0
 51
270.0
  0
ARC
  8
ITEM_50
 10
420.439199
 20
460.442329
 30
0.0
 40
1.0
 50
270.0
 51
0.0
  0
ARC
  8
ITEM_50
 10
422.439199
 20
480.142329
 30
0.0
 40
1.0
 50
90.0
 51
180.0
  0
LINE
  8
ITEM_50
 10
422.439199
 20
481.142329
 30
0.0
 11
429.139199
 21
481.142329
 31
0.0
  0
ARC
  8
ITEM_50
 10
429.139199
 20
480.142329
 30
0.0
 40
1.0
 50
0.0
 51
90.0
  0
ARC
  8
ITEM_50
 10
443.939199
 20
477.942329
 30
0.0
 40
0.5
 50
0.0
 51
90.0
  0
LINE
  8
ITEM_50
 10
444.439199
 20
476.942329
 30
0.0
 11
444.439199
 21
477.942329
 31
0.0
  0
ARC
  8
ITEM_50
 10
443.939199
 20
476.942329
 30
0.0
 40
0.5
 50
270.0
 51
0.0
  0
LINE
  8
ITEM_50
 10
438.342486
 20
476.442329
 30
0.0
 11
443.939199
 21
476.442329
 31
0.0
  0
ARC
  8
ITEM_50
 10
436.439199
 20
477.442329
 30
0.0
 40
2.149999999999999
 50
207.717748
 51
332.282252
  0
LINE
  8
ITEM_50
 10
433.939199
 20
476.442329
 30
0.0
 11
434.5359129999999
 21
476.442329
 31
0.0
  0
LINE
  8
ITEM_50
 10
433.939199
 20
478.442329
 30
0.0
 11
433.939199
 21
476.442329
 31
0.0
  0
LINE
  8
ITEM_50
 10
434.5359129999999
 20
478.442329
 30
0.0
 11
433.939199
 21
478.442329
 31
0.0
  0
ARC
  8
ITEM_50
 10
436.439199
 20
477.442329
 30
0.0
 40
2.149999999999999
 50
27.71774799999999
 51
152.2822519999999
  0
LINE
  8
ITEM_50
 10
443.939199
 20
478.442329
 30
0.0
 11
438.342486
 21
478.442329
 31
0.0
  0
LINE
  8
ITEM_50
 10
421.439199
 20
460.442329
 30
0.0
 11
421.439199
 21
480.142329
 31
0.0
  0
LINE
  8
ITEM_50
 10
430.239199
 20
464.642329
 30
0.0
 11
431.439199
 21
463.442329
 31
0.0
  0
LINE
  8
ITEM_50
 10
430.139199
 20
480.142329
 30
0.0
 11
430.139199
 21
464.7423289999999
 31
0.0
  0
LINE
  8
ITEM_50
 10
542.0735809999998
 20
487.442329
 30
0.0
 11
474.0735809999999
 21
487.442329
 31
0.0
  0
LINE
  8
ITEM_50
 10
542.0735809999998
 20
487.442329
 30
0.0
 11
542.0735809999998
 21
459.442329
 31
0.0
  0
LINE
  8
ITEM_50
 10
542.0735809999998
 20
459.442329
 30
0.0
 11
474.0735809999999
 21
459.442329
 31
0.0
  0
LINE
  8
ITEM_50
 10
474.0735809999999
 20
487.442329
 30
0.0
 11
474.0735809999999
 21
459.442329
 31
0.0
  0
LINE
  8
ITEM_STP
 10
488.0735809999999
 20
456.223344
 30
0.0
 11
488.0735809999999
 21
489.652308
 31
0.0
  0
LINE
  8
ITEM_STP
 10
479.2430129999999
 20
471.6480419999999
 30
0.0
 11
497.665583
 21
471.6480419999999
 31
0.0
  0
CIRCLE
  8
ITEM_50
 10
488.0735809999999
 20
471.6480419999999
 30
0.0
 40
7.0
  0
CIRCLE
  8
ITEM_50
 10
488.0735809999999
 20
471.6480419999999
 30
0.0
 40
6.5
  0
LINE
  8
ITEM_STP
 10
538.0735809999998
 20
470.721508
 30
0.0
 11
538.0735809999998
 21
464.142329
 31
0.0
  0
LINE
  8
ITEM_STP
 10
478.0735809999999
 20
470.7234179999999
 30
0.0
 11
478.0735809999999
 21
464.142329
 31
0.0
  0
CIRCLE
  8
ITEM_50
 10
478.0735809999999
 20
467.442329
 30
0.0
 40
2.299999999999999
  0
CIRCLE
  8
ITEM_50
 10
538.0735809999998
 20
467.442329
 30
0.0
 40
2.299999999999999
  0
CIRCLE
  8
ITEM_50
 10
488.0735809999999
 20
471.6480419999999
 30
0.0
 40
7.5
  0
LINE
  8
ITEM_STP
 10
474.7735809999999
 20
467.442329
 30
0.0
 11
481.3735809999999
 21
467.442329
 31
0.0
  0
LINE
  8
ITEM_STP
 10
534.7735809999999
 20
467.442329
 30
0.0
 11
541.3735809999999
 21
467.442329
 31
0.0
  0
LINE
  8
ITEM_50
 10
474.0735809999999
 20
441.9017519999999
 30
0.0
 11
474.0735809999999
 21
413.9017519999999
 31
0.0
  0
LINE
  8
ITEM_50
 10
542.0735809999998
 20
441.9017519999999
 30
0.0
 11
542.0735809999998
 21
413.9017519999999
 31
0.0
  0
LINE
  8
ITEM_50
 10
474.0735809999999
 20
441.9017519999999
 30
0.0
 11
542.0735809999998
 21
441.9017519999999
 31
0.0
  0
LINE
  8
ITEM_50
 10
474.0735809999999
 20
413.9017519999999
 30
0.0
 11
542.0735809999998
 21
413.9017519999999
 31
0.0
  0
LINE
  8
ITEM_50
 10
474.0735809999999
 20
434.4017519999999
 30
0.0
 11
542.0735809999998
 21
434.4017519999999
 31
0.0
  0
LINE
  8
ITEM_50
 10
474.0735809999999
 20
429.4017519999999
 30
0.0
 11
542.0735809999998
 21
429.4017519999999
 31
0.0
  0
LINE
  8
ITEM_50
 10
420.439199
 20
487.442329
 30
0.0
 11
433.139215
 21
487.4420809999999
 31
0.0
  0
LINE
  8
ITEM_50
 10
433.939199
 20
486.5567419999999
 30
0.0
 11
433.939199
 21
486.6420809999999
 31
0.0
  0
LINE
  8
ITEM_50
 10
438.9392
 20
486.5567419999999
 30
0.0
 11
438.9392
 21
486.6419519999999
 31
0.0
  0
LINE
  8
ITEM_50
 10
439.7392159999999
 20
487.4419519999999
 30
0.0
 11
444.439199
 21
487.4418599999999
 31
0.0
  0
ARC
  8
ITEM_50
 10
433.139199
 20
486.6420809999999
 30
0.0
 40
0.8
 50
0.0
 51
89.99888199999999
  0
ARC
  8
ITEM_50
 10
439.7391999999999
 20
486.6419519999999
 30
0.0
 40
0.8
 50
89.99888199999999
 51
180.0
  0
LINE
  8
ITEM_50
 10
446.439199
 20
485.4418599999999
 30
0.0
 11
446.439199
 21
470.7423289999999
 31
0.0
  0
ARC
  8
ITEM_50
 10
445.639199
 20
470.7423289999999
 30
0.0
 40
0.8
 50
270.0
 51
0.0
  0
LINE
  8
ITEM_50
 10
446.439199
 20
461.442329
 30
0.0
 11
446.439199
 21
464.1418599999999
 31
0.0
  0
ARC
  8
ITEM_50
 10
445.639199
 20
464.1418599999999
 30
0.0
 40
0.8
 50
0.0
 51
90.0
  0
LINE
  8
ITEM_STP
 10
415.954718
 20
471.6480419999999
 30
0.0
 11
431.5675089999999
 21
471.6480419999999
 31
0.0
  0
LINE
  8
ITEM_STP
 10
438.0811459999999
 20
467.442329
 30
0.0
 11
452.6354179999999
 21
467.442329
 31
0.0
  0
LINE
  8
ITEM_STP
 10
578.0660159999999
 20
467.442329
 30
0.0
 11
563.511744
 21
467.442329
 31
0.0
  0
LINE
  8
ITEM_STP
 10
600.192444
 20
471.6480419999999
 30
0.0
 11
584.579652
 21
471.6480419999999
 31
0.0
  0
ARC
  8
ITEM_50
 10
570.507962
 20
464.1418599999999
 30
0.0
 40
0.8
 50
90.0
 51
180.0
  0
LINE
  8
ITEM_50
 10
569.707962
 20
461.442329
 30
0.0
 11
569.707962
 21
464.1418599999999
 31
0.0
  0
ARC
  8
ITEM_50
 10
570.507962
 20
470.7423289999999
 30
0.0
 40
0.8
 50
180.0
 51
270.0
  0
LINE
  8
ITEM_50
 10
569.707962
 20
485.4418599999999
 30
0.0
 11
569.707962
 21
470.7423289999999
 31
0.0
  0
ARC
  8
ITEM_50
 10
576.4079619999999
 20
486.6419519999999
 30
0.0
 40
0.8
 50
0.0
 51
90.001118
  0
ARC
  8
ITEM_50
 10
583.007962
 20
486.6420809999999
 30
0.0
 40
0.8
 50
90.001118
 51
180.0
  0
LINE
  8
ITEM_50
 10
576.407946
 20
487.4419519999999
 30
0.0
 11
571.707962
 21
487.4418599999999
 31
0.0
  0
LINE
  8
ITEM_50
 10
577.207962
 20
486.5567419999999
 30
0.0
 11
577.207962
 21
486.6419519999999
 31
0.0
  0
LINE
  8
ITEM_50
 10
582.207962
 20
486.5567419999999
 30
0.0
 11
582.207962
 21
486.6420809999999
 31
0.0
  0
LINE
  8
ITEM_50
 10
595.707962
 20
487.442329
 30
0.0
 11
583.0079459999999
 21
487.4420809999999
 31
0.0
  0
LINE
  8
ITEM_50
 10
586.007962
 20
480.142329
 30
0.0
 11
586.007962
 21
464.7423289999999
 31
0.0
  0
LINE
  8
ITEM_50
 10
585.9079619999999
 20
464.642329
 30
0.0
 11
584.707962
 21
463.442329
 31
0.0
  0
LINE
  8
ITEM_50
 10
594.707962
 20
460.442329
 30
0.0
 11
594.707962
 21
480.142329
 31
0.0
  0
LINE
  8
ITEM_50
 10
572.207962
 20
478.442329
 30
0.0
 11
577.8046749999999
 21
478.442329
 31
0.0
  0
ARC
  8
ITEM_50
 10
579.707962
 20
477.442329
 30
0.0
 40
2.149999999999999
 50
27.71774799999999
 51
152.2822519999999
  0
LINE
  8
ITEM_50
 10
581.611249
 20
478.442329
 30
0.0
 11
582.207962
 21
478.442329
 31
0.0
  0
LINE
  8
ITEM_50
 10
582.207962
 20
478.442329
 30
0.0
 11
582.207962
 21
476.442329
 31
0.0
  0
LINE
  8
ITEM_50
 10
582.207962
 20
476.442329
 30
0.0
 11
581.611249
 21
476.442329
 31
0.0
  0
ARC
  8
ITEM_50
 10
579.707962
 20
477.442329
 30
0.0
 40
2.149999999999999
 50
207.717748
 51
332.282252
  0
LINE
  8
ITEM_50
 10
577.8046749999999
 20
476.442329
 30
0.0
 11
572.207962
 21
476.442329
 31
0.0
  0
ARC
  8
ITEM_50
 10
572.207962
 20
476.942329
 30
0.0
 40
0.5
 50
180.0
 51
270.0
  0
LINE
  8
ITEM_50
 10
571.707962
 20
476.942329
 30
0.0
 11
571.707962
 21
477.942329
 31
0.0
  0
ARC
  8
ITEM_50
 10
572.207962
 20
477.942329
 30
0.0
 40
0.5
 50
90.0
 51
180.0
  0
ARC
  8
ITEM_50
 10
587.007962
 20
480.142329
 30
0.0
 40
1.0
 50
90.0
 51
180.0
  0
LINE
  8
ITEM_50
 10
593.707962
 20
481.142329
 30
0.0
 11
587.007962
 21
481.142329
 31
0.0
  0
ARC
  8
ITEM_50
 10
593.707962
 20
480.142329
 30
0.0
 40
1.0
 50
0.0
 51
90.0
  0
ARC
  8
ITEM_50
 10
595.707962
 20
460.442329
 30
0.0
 40
1.0
 50
180.0
 51
270.0
  0
ARC
  8
ITEM_50
 10
595.707962
 20
461.442329
 30
0.0
 40
2.0
 50
270.0
 51
0.0
  0
LINE
  8
ITEM_50
 10
597.707962
 20
485.442329
 30
0.0
 11
597.707962
 21
461.442329
 31
0.0
  0
ARC
  8
ITEM_50
 10
595.707962
 20
485.442329
 30
0.0
 40
2.0
 50
0.0
 51
90.0
  0
LINE
  8
ITEM_50
 10
587.707962
 20
487.442329
 30
0.0
 11
595.707962
 21
487.442329
 31
0.0
  0
LINE
  8
ITEM_50
 10
582.207962
 20
485.942329
 30
0.0
 11
582.207962
 21
486.5567419999999
 31
0.0
  0
ARC
  8
ITEM_50
 10
582.507962
 20
485.942329
 30
0.0
 40
0.3
 50
180.0
 51
270.0
  0
LINE
  8
ITEM_50
 10
584.625553
 20
485.642329
 30
0.0
 11
582.507962
 21
485.642329
 31
0.0
  0
ARC
  8
ITEM_50
 10
584.625553
 20
484.809919
 30
0.0
 40
0.832411
 50
315.0
 51
90.000003
  0
LINE
  8
ITEM_50
 10
582.9638489999999
 20
481.9710089999999
 30
0.0
 11
585.214156
 21
484.221315
 31
0.0
  0
ARC
  8
ITEM_50
 10
580.842529
 20
484.092329
 30
0.0
 40
3.0
 50
270.0
 51
315.0
  0
LINE
  8
ITEM_50
 10
578.573395
 20
481.092329
 30
0.0
 11
580.842529
 21
481.092329
 31
0.0
  0
ARC
  8
ITEM_50
 10
578.573395
 20
484.092329
 30
0.0
 40
3.0
 50
225.0
 51
270.0
  0
LINE
  8
ITEM_50
 10
574.201768
 20
484.221315
 30
0.0
 11
576.452075
 21
481.9710089999999
 31
0.0
  0
ARC
  8
ITEM_50
 10
574.790371
 20
484.809919
 30
0.0
 40
0.832411
 50
90.0
 51
224.999997
  0
LINE
  8
ITEM_50
 10
576.9079619999999
 20
485.642329
 30
0.0
 11
574.790371
 21
485.642329
 31
0.0
  0
ARC
  8
ITEM_50
 10
576.9079619999999
 20
485.942329
 30
0.0
 40
0.3
 50
270.0
 51
0.0
  0
LINE
  8
ITEM_50
 10
577.207962
 20
486.5567419999999
 30
0.0
 11
577.207962
 21
485.942329
 31
0.0
  0
ARC
  8
ITEM_50
 10
571.707962
 20
485.4418599999999
 30
0.0
 40
2.0
 50
90.0
 51
180.0
  0
LINE
  8
ITEM_50
 10
569.707962
 20
475.4418599999999
 30
0.0
 11
569.707962
 21
485.4418599999999
 31
0.0
  0
ARC
  8
ITEM_50
 10
571.207962
 20
470.2418599999999
 30
0.0
 40
0.3
 50
270.0
 51
0.0
  0
LINE
  8
ITEM_50
 10
571.507962
 20
472.3594459999999
 30
0.0
 11
571.507962
 21
470.2418599999999
 31
0.0
  0
ARC
  8
ITEM_50
 10
572.340372
 20
472.3594509999999
 30
0.0
 40
0.832411
 50
45.0
 51
180.0003989999999
  0
LINE
  8
ITEM_50
 10
575.179282
 20
470.697748
 30
0.0
 11
572.928975
 21
472.9480549999999
 31
0.0
  0
ARC
  8
ITEM_50
 10
573.0579619999999
 20
468.5764269999999
 30
0.0
 40
3.0
 50
0.0
 51
45.0
  0
LINE
  8
ITEM_50
 10
576.0579619999999
 20
466.3072929999999
 30
0.0
 11
576.0579619999999
 21
468.5764269999999
 31
0.0
  0
ARC
  8
ITEM_50
 10
573.0579619999999
 20
466.3072929999999
 30
0.0
 40
3.0
 50
315.0
 51
0.0
  0
LINE
  8
ITEM_50
 10
572.928975
 20
461.935666
 30
0.0
 11
575.179282
 21
464.185973
 31
0.0
  0
ARC
  8
ITEM_50
 10
572.340372
 20
462.524269
 30
0.0
 40
0.832411
 50
180.0
 51
314.999997
  0
LINE
  8
ITEM_50
 10
571.507962
 20
464.6418599999999
 30
0.0
 11
571.507962
 21
462.524269
 31
0.0
  0
ARC
  8
ITEM_50
 10
571.207962
 20
464.6418599999999
 30
0.0
 40
0.3
 50
0.0
 51
90.0
  0
LINE
  8
ITEM_50
 10
570.507962
 20
464.9418599999999
 30
0.0
 11
571.207962
 21
464.9418599999999
 31
0.0
  0
ARC
  8
ITEM_50
 10
571.707962
 20
461.442329
 30
0.0
 40
2.0
 50
180.0
 51
270.0
  0
LINE
  8
ITEM_50
 10
583.707962
 20
459.442329
 30
0.0
 11
571.707962
 21
459.442329
 31
0.0
  0
ARC
  8
ITEM_50
 10
583.707962
 20
460.442329
 30
0.0
 40
1.0
 50
270.0
 51
0.0
  0
LINE
  8
ITEM_50
 10
584.707962
 20
463.442329
 30
0.0
 11
584.707962
 21
460.442329
 31
0.0
  0
LINE
  8
ITEM_50
 10
586.007962
 20
464.7423289999999
 30
0.0
 11
585.9079619999999
 21
464.642329
 31
0.0
  0
CIRCLE
  8
ITEM_50
 10
579.707962
 20
467.442329
 30
0.0
 40
2.149999999999999
  0
LINE
  8
ITEM_50
 10
593.707962
 20
471.642329
 30
0.0
 11
593.707962
 21
467.842329
 31
0.0
  0
LINE
  8
ITEM_50
 10
593.507962
 20
467.642329
 30
0.0
 11
593.207962
 21
467.642329
 31
0.0
  0
LINE
  8
ITEM_50
 10
593.207962
 20
471.642329
 30
0.0
 11
593.207962
 21
463.5423289999999
 31
0.0
  0
LINE
  8
ITEM_50
 10
592.8079619999999
 20
463.142329
 30
0.0
 11
592.349152
 21
463.142329
 31
0.0
  0
LINE
  8
ITEM_50
 10
590.5615219999999
 20
464.642329
 30
0.0
 11
589.707962
 21
464.642329
 31
0.0
  0
ARC
  8
ITEM_50
 10
592.8079619999999
 20
463.5423289999999
 30
0.0
 40
0.4
 50
270.0
 51
0.0
  0
ARC
  8
ITEM_50
 10
593.507962
 20
467.842329
 30
0.0
 40
0.2
 50
270.0
 51
0.0
  0
ARC
  8
ITEM_50
 10
586.607962
 20
463.5423289999999
 30
0.0
 40
0.4
 50
180.0
 51
270.0
  0
LINE
  8
ITEM_50
 10
586.207962
 20
471.642329
 30
0.0
 11
586.207962
 21
463.5423289999999
 31
0.0
  0
LINE
  8
ITEM_50
 10
586.007962
 20
467.642329
 30
0.0
 11
586.207962
 21
467.642329
 31
0.0
  0
LINE
  8
ITEM_50
 10
590.5615219999999
 20
464.642329
 30
0.0
 11
592.349152
 21
463.142329
 31
0.0
  0
LINE
  8
ITEM_50
 10
588.8544019999999
 20
464.642329
 30
0.0
 11
589.707962
 21
464.642329
 31
0.0
  0
LINE
  8
ITEM_50
 10
588.8544019999999
 20
464.642329
 30
0.0
 11
587.066772
 21
463.142329
 31
0.0
  0
LINE
  8
ITEM_50
 10
586.607962
 20
463.142329
 30
0.0
 11
587.066772
 21
463.142329
 31
0.0
  0
LINE
  8
ITEM_50
 10
590.5615219999999
 20
464.642329
 30
0.0
 11
590.5615219999999
 21
471.642329
 31
0.0
  0
LINE
  8
ITEM_50
 10
588.8544019999999
 20
464.642329
 30
0.0
 11
588.8544019999999
 21
471.642329
 31
0.0
  0
LINE
  8
ITEM_50
 10
588.8544019999999
 20
478.642329
 30
0.0
 11
588.8544019999999
 21
471.642329
 31
0.0
  0
LINE
  8
ITEM_50
 10
590.5615219999999
 20
478.642329
 30
0.0
 11
590.5615219999999
 21
471.642329
 31
0.0
  0
LINE
  8
ITEM_50
 10
586.607962
 20
480.142329
 30
0.0
 11
587.066772
 21
480.142329
 31
0.0
  0
LINE
  8
ITEM_50
 10
588.8544019999999
 20
478.642329
 30
0.0
 11
587.066772
 21
480.142329
 31
0.0
  0
LINE
  8
ITEM_50
 10
588.8544019999999
 20
478.642329
 30
0.0
 11
589.707962
 21
478.642329
 31
0.0
  0
LINE
  8
ITEM_50
 10
590.5615219999999
 20
478.642329
 30
0.0
 11
592.349152
 21
480.142329
 31
0.0
  0
LINE
  8
ITEM_50
 10
586.007962
 20
475.642329
 30
0.0
 11
586.207962
 21
475.642329
 31
0.0
  0
LINE
  8
ITEM_50
 10
586.207962
 20
471.642329
 30
0.0
 11
586.207962
 21
479.7423289999999
 31
0.0
  0
ARC
  8
ITEM_50
 10
586.607962
 20
479.7423289999999
 30
0.0
 40
0.4
 50
90.0
 51
180.0
  0
ARC
  8
ITEM_50
 10
593.507962
 20
475.442329
 30
0.0
 40
0.2
 50
0.0
 51
90.0
  0
ARC
  8
ITEM_50
 10
592.8079619999999
 20
479.7423289999999
 30
0.0
 40
0.4
 50
0.0
 51
90.0
  0
LINE
  8
ITEM_50
 10
590.5615219999999
 20
478.642329
 30
0.0
 11
589.707962
 21
478.642329
 31
0.0
  0
LINE
  8
ITEM_50
 10
592.8079619999999
 20
480.142329
 30
0.0
 11
592.349152
 21
480.142329
 31
0.0
  0
LINE
  8
ITEM_50
 10
593.207962
 20
471.642329
 30
0.0
 11
593.207962
 21
479.7423289999999
 31
0.0
  0
LINE
  8
ITEM_50
 10
593.507962
 20
475.642329
 30
0.0
 11
593.207962
 21
475.642329
 31
0.0
  0
LINE
  8
ITEM_50
 10
593.707962
 20
471.642329
 30
0.0
 11
593.707962
 21
475.442329
 31
0.0
  0
LINE
  8
ITEM_50
 10
586.207962
 20
474.142329
 30
0.0
 11
586.207962
 21
469.142329
 31
0.0
  0
LINE
  8
ITEM_50
 10
593.707962
 20
464.942329
 30
0.0
 11
593.707962
 21
478.342329
 31
0.0
  0
LINE
  8
ITEM_50
 10
594.007962
 20
478.642329
 30
0.0
 11
594.707962
 21
478.642329
 31
0.0
  0
LINE
  8
ITEM_50
 10
594.007962
 20
464.642329
 30
0.0
 11
594.707962
 21
464.642329
 31
0.0
  0
LINE
  8
ITEM_50
 10
594.007962
 20
478.642329
 30
0.0
 11
593.707962
 21
478.342329
 31
0.0
  0
LINE
  8
ITEM_50
 10
593.707962
 20
464.942329
 30
0.0
 11
594.007962
 21
464.642329
 31
0.0
  0
LINE
  8
ITEM_50
 10
594.007962
 20
478.642329
 30
0.0
 11
594.007962
 21
464.642329
 31
0.0
  0
LINE
  8
ITEM_50
 10
565.0779619999999
 20
469.942329
 30
0.0
 11
565.0779619999999
 21
464.942329
 31
0.0
  0
LINE
  8
ITEM_50
 10
565.0779619999999
 20
469.942329
 30
0.0
 11
564.507962
 21
469.3723289999999
 31
0.0
  0
LINE
  8
ITEM_50
 10
564.507962
 20
469.3723289999999
 30
0.0
 11
564.507962
 21
465.512329
 31
0.0
  0
LINE
  8
ITEM_50
 10
564.507962
 20
465.512329
 30
0.0
 11
565.0779619999999
 21
464.942329
 31
0.0
  0
LINE
  8
ITEM_50
 10
565.0779619999999
 20
464.942329
 30
0.0
 11
569.707962
 21
464.942329
 31
0.0
  0
LINE
  8
ITEM_50
 10
571.507962
 20
469.942329
 30
0.0
 11
565.0779619999999
 21
469.942329
 31
0.0
  0
LINE
  8
ITEM_50
 10
570.9079619999999
 20
469.942329
 30
0.0
 11
570.9079619999999
 21
464.942329
 31
0.0
  0
LINE
  8
ITEM_25
 10
564.507962
 20
469.3723289999999
 30
0.0
 11
570.9079619999999
 21
469.3723289999999
 31
0.0
  0
LINE
  8
ITEM_25
 10
570.9079619999999
 20
469.3723289999999
 30
0.0
 11
571.507962
 21
469.717329
 31
0.0
  0
LINE
  8
ITEM_25
 10
564.507962
 20
465.512329
 30
0.0
 11
570.9079619999999
 21
465.512329
 31
0.0
  0
LINE
  8
ITEM_25
 10
570.9079619999999
 20
465.512329
 30
0.0
 11
571.507962
 21
465.1673289999999
 31
0.0
  0
LINE
  8
ITEM_50
 10
569.707962
 20
464.942329
 30
0.0
 11
571.507962
 21
464.942329
 31
0.0
  0
LINE
  8
ITEM_50
 10
572.507962
 20
462.692329
 30
0.0
 11
573.007962
 21
462.692329
 31
0.0
  0
LINE
  8
ITEM_50
 10
573.007962
 20
462.692329
 30
0.0
 11
573.007962
 21
472.192329
 31
0.0
  0
ARC
  8
ITEM_50
 10
570.30842
 20
467.136704
 30
0.0
 40
5.2
 50
301.274764
 51
342.1449099999999
  0
LINE
  8
ITEM_50
 10
575.257962
 20
469.342329
 30
0.0
 11
575.257962
 21
465.5423289999999
 31
0.0
  0
ARC
  8
ITEM_50
 10
570.30842
 20
467.7479539999999
 30
0.0
 40
5.2
 50
17.85509
 51
58.72523599999998
  0
LINE
  8
ITEM_50
 10
573.007962
 20
472.192329
 30
0.0
 11
572.507962
 21
472.192329
 31
0.0
  0
LINE
  8
ITEM_STP
 10
478.0735809999999
 20
439.8038799999999
 30
0.0
 11
478.0735809999999
 21
448.189278
 31
0.0
  0
LINE
  8
ITEM_25
 10
476.1435809999999
 20
447.1017519999999
 30
0.0
 11
476.1435809999999
 21
441.9017519999999
 31
0.0
  0
LINE
  8
ITEM_25
 10
480.0035809999999
 20
447.1017519999999
 30
0.0
 11
480.0035809999999
 21
441.9017519999999
 31
0.0
  0
LINE
  8
ITEM_50
 10
475.5735809999999
 20
446.5317519999999
 30
0.0
 11
475.5735809999999
 21
441.9017519999999
 31
0.0
  0
LINE
  8
ITEM_50
 10
476.1435809999999
 20
447.1017519999999
 30
0.0
 11
475.5735809999999
 21
446.5317519999999
 31
0.0
  0
LINE
  8
ITEM_50
 10
480.0035809999999
 20
447.1017519999999
 30
0.0
 11
476.1435809999999
 21
447.1017519999999
 31
0.0
  0
LINE
  8
ITEM_50
 10
480.5735809999999
 20
446.5317519999999
 30
0.0
 11
480.0035809999999
 21
447.1017519999999
 31
0.0
  0
LINE
  8
ITEM_50
 10
480.5735809999999
 20
446.5317519999999
 30
0.0
 11
475.5735809999999
 21
446.5317519999999
 31
0.0
  0
LINE
  8
ITEM_50
 10
480.5735809999999
 20
446.5317519999999
 30
0.0
 11
480.5735809999999
 21
441.9017519999999
 31
0.0
  0
LINE
  8
ITEM_50
 10
535.5735809999998
 20
446.5317519999999
 30
0.0
 11
535.5735809999998
 21
441.9017519999999
 31
0.0
  0
LINE
  8
ITEM_50
 10
535.5735809999998
 20
446.5317519999999
 30
0.0
 11
540.5735809999998
 21
446.5317519999999
 31
0.0
  0
LINE
  8
ITEM_50
 10
535.5735809999998
 20
446.5317519999999
 30
0.0
 11
536.143581
 21
447.1017519999999
 31
0.0
  0
LINE
  8
ITEM_50
 10
536.143581
 20
447.1017519999999
 30
0.0
 11
540.0035809999999
 21
447.1017519999999
 31
0.0
  0
LINE
  8
ITEM_50
 10
540.0035809999999
 20
447.1017519999999
 30
0.0
 11
540.5735809999998
 21
446.5317519999999
 31
0.0
  0
LINE
  8
ITEM_50
 10
540.5735809999998
 20
446.5317519999999
 30
0.0
 11
540.5735809999998
 21
441.9017519999999
 31
0.0
  0
LINE
  8
ITEM_25
 10
536.143581
 20
447.1017519999999
 30
0.0
 11
536.143581
 21
441.9017519999999
 31
0.0
  0
LINE
  8
ITEM_25
 10
540.0035809999999
 20
447.1017519999999
 30
0.0
 11
540.0035809999999
 21
441.9017519999999
 31
0.0
  0
LINE
  8
ITEM_STP
 10
538.0735809999998
 20
439.8038799999999
 30
0.0
 11
538.0735809999998
 21
448.189278
 31
0.0
  0
LINE
  8
ITEM_STP
 10
488.0735809999999
 20
410.77187
 30
0.0
 11
488.0735809999999
 21
445.5401349999999
 31
0.0
  0
LINE
  8
ITEM_50
 10
571.507962
 20
472.442329
 30
0.0
 11
572.507962
 21
472.442329
 31
0.0
  0
LINE
  8
ITEM_50
 10
572.507962
 20
472.442329
 30
0.0
 11
572.507962
 21
462.442329
 31
0.0
  0
LINE
  8
ITEM_50
 10
572.507962
 20
462.442329
 30
0.0
 11
571.507962
 21
462.442329
 31
0.0
  0
LINE
  8
ITEM_50
 10
571.507962
 20
462.442329
 30
0.0
 11
571.507962
 21
472.442329
 31
0.0
  0
LINE
  8
ITEM_50
 10
444.639199
 20
472.442329
 30
0.0
 11
443.639199
 21
472.442329
 31
0.0
  0
LINE
  8
ITEM_50
 10
443.639199
 20
472.442329
 30
0.0
 11
443.639199
 21
462.442329
 31
0.0
  0
LINE
  8
ITEM_50
 10
443.639199
 20
462.442329
 30
0.0
 11
444.639199
 21
462.442329
 31
0.0
  0
LINE
  8
ITEM_50
 10
444.639199
 20
462.442329
 30
0.0
 11
444.639199
 21
472.442329
 31
0.0
  0
LINE
  8
ITEM_50
 10
487.2075549999999
 20
473.1480419999999
 30
0.0
 11
486.3415299999999
 21
471.6480419999999
 31
0.0
  0
LINE
  8
ITEM_50
 10
486.3415299999999
 20
471.6480419999999
 30
0.0
 11
487.2075549999999
 21
470.1480419999999
 31
0.0
  0
LINE
  8
ITEM_50
 10
487.2075549999999
 20
470.1480419999999
 30
0.0
 11
488.9396059999999
 21
470.1480419999999
 31
0.0
  0
LINE
  8
ITEM_50
 10
488.9396059999999
 20
470.1480419999999
 30
0.0
 11
489.805632
 21
471.6480419999999
 31
0.0
  0
LINE
  8
ITEM_50
 10
489.805632
 20
471.6480419999999
 30
0.0
 11
488.9396059999999
 21
473.1480419999999
 31
0.0
  0
LINE
  8
ITEM_50
 10
488.9396059999999
 20
473.1480419999999
 30
0.0
 11
487.2075549999999
 21
473.1480419999999
 31
0.0
  0
LINE
  8
ITEM_STP
 10
419.878615
 20
461.442329
 30
0.0
 11
432.9997839999999
 21
461.442329
 31
0.0
  0
LINE
  8
ITEM_STP
 10
596.268546
 20
461.442329
 30
0.0
 11
583.147378
 21
461.442329
 31
0.0
  0
LINE
  8
ITEM_STP
 10
589.707962
 20
457.055092
 30
0.0
 11
589.707962
 21
480.4608639999999
 31
0.0
  0
LINE
  8
ITEM_STP
 10
481.5129969999999
 20
461.442329
 30
0.0
 11
494.634165
 21
461.442329
 31
0.0
  0
LINE
  8
ITEM_STP
 10
481.5129969999999
 20
421.9017519999999
 30
0.0
 11
494.634165
 21
421.9017519999999
 31
0.0
  0
LINE
  8
ITEM_STP
 10
521.512997
 20
421.9017519999999
 30
0.0
 11
534.634165
 21
421.9017519999999
 31
0.0
  0
LINE
  8
ITEM_STP
 10
528.0735809999998
 20
410.77187
 30
0.0
 11
528.0735809999998
 21
445.5401349999999
 31
0.0
  0
LINE
  8
ITEM_STP
 10
521.512997
 20
461.442329
 30
0.0
 11
534.634165
 21
461.442329
 31
0.0
  0
LINE
  8
ITEM_50
 10
528.9396059999999
 20
473.1480419999999
 30
0.0
 11
527.2075549999999
 21
473.1480419999999
 31
0.0
  0
LINE
  8
ITEM_50
 10
529.805632
 20
471.6480419999999
 30
0.0
 11
528.9396059999999
 21
473.1480419999999
 31
0.0
  0
LINE
  8
ITEM_50
 10
528.9396059999999
 20
470.1480419999999
 30
0.0
 11
529.805632
 21
471.6480419999999
 31
0.0
  0
LINE
  8
ITEM_50
 10
527.2075549999999
 20
470.1480419999999
 30
0.0
 11
528.9396059999999
 21
470.1480419999999
 31
0.0
  0
LINE
  8
ITEM_50
 10
526.3415299999999
 20
471.6480419999999
 30
0.0
 11
527.2075549999999
 21
470.1480419999999
 31
0.0
  0
LINE
  8
ITEM_50
 10
527.2075549999999
 20
473.1480419999999
 30
0.0
 11
526.3415299999999
 21
471.6480419999999
 31
0.0
  0
CIRCLE
  8
ITEM_50
 10
528.0735809999998
 20
471.6480419999999
 30
0.0
 40
7.5
  0
CIRCLE
  8
ITEM_50
 10
528.0735809999998
 20
471.6480419999999
 30
0.0
 40
6.5
  0
CIRCLE
  8
ITEM_50
 10
528.0735809999998
 20
471.6480419999999
 30
0.0
 40
7.0
  0
LINE
  8
ITEM_STP
 10
519.243013
 20
471.6480419999999
 30
0.0
 11
537.6655829999999
 21
471.6480419999999
 31
0.0
  0
LINE
  8
ITEM_STP
 10
528.0735809999998
 20
456.223344
 30
0.0
 11
528.0735809999998
 21
489.652308
 31
0.0
  0
LINE
  8
ITEM_STP
 10
415.954718
 20
472.1480419999999
 30
0.0
 11
431.5675089999999
 21
472.1480419999999
 31
0.0
  0
LINE
  8
ITEM_STP
 10
600.192444
 20
472.1480419999999
 30
0.0
 11
584.579652
 21
472.1480419999999
 31
0.0
  0
ENDSEC
  0
EOF
